Payday Loans

Keresés

Ébredj, napsugár PDF Nyomtatás E-mail
  Bergendy - Ébredj, napsugár






Bevezető:
  e |----0-------0--|----0----------|
  H |----0-------1--|----2---3---1--|
  G |--0---0---0---0|--0---0-2---2--|
  D |---------------|----------2---2|
  A |--------3------|---------------|
  E |0--------------|0--------------|


Versszak kísérete:
     Em      C       Em6     C       D               Am      A4  Am
  e |----0-------0--|----0-------0--|----2-------2--|----0---0---0--|
  H |----0-------1--|----2-------1--|----3-------3--|----1---3---1--|
  G |--0---0---0---0|--0---0---0---0|--2---2---2---2|--2---2---2---2|
  D |---------------|---------------|0-------0------|---------------|
  A |---------------|---------------|---------------|0--------------|
  E |0-------0------|0-------0------|---------------|---------------|
     Em      C       Em      C       D       C       Am Ammaj7 Am
  e |----0-------0--|----0-------0--|----2-------0--|--0---0---0---0|
  H |----0-------1--|----2-------1--|----3-------1--|--1---1---1---1|
  G |--0---0---0---0|--0---0---0---0|--2---2---0---0|2---1----------|
  D |---------------|---------------|0--------------|---------------|
  A |--------3------|--------3------|--------3------|--------0---0--|
  E |0--------------|0--------------|---------------|---------------|


A refrén utolsó Em akkordja:
  e |----0-------0--|
  H |----0-------0--|
  G |--0---0---0---0|
  D |---------------|
  A |---------------|
  E |0-------0------|


[Bevezető]


Ha éjjel minden elpihen
Gondolj rá, hogy mit jelent
Mit jelent másnak, s neked a fény
A költőnek új verseket
A festőnek új képeket
A napfény minden embernek remény


Em
Ébredj, napsugár
 C
Süss le hozzánk újra már
 D        -      Am          Em
Fényesítsd meg szép világunk útjait
Em
Ébredj, napsugár
C
Érezzük hát újra már
   D        -      Am          Em
Az új nap minden szépségét és kínjait


Gondolj rá, hogy mit jelent
Ha a hajnalt várod szüntelen
Ha álmatlan vagy, s meggyötört az éj
A gyermeknek, ki fél sötétben
S eltévedt egy zord erdőben
Mit jelent, ha felcsillant a fény


Ébredj, napsugár...


E4  Em  E4  G  D  Am  Hm  Em


Rájössz majd, hogy mit jelent
Ha este majd a Nap lement
S elcsigázott fényét szórja rád
Gazdagnak és oltalannak
Boldognak, boldogtalannak
D                          C-Hm  Am
Új harcot jelent és új csodát


Ébredj, napsugár
Süss le hozzánk újra már
Fényesítsd meg szép világunk útjait
Ébredj, napsugár
Érezzük hát újra már
   D        -      Am          Em  -  C = D
Az új nap minden szépségét és kínjait


||: Ébredj, napsugár... :||