Payday Loans

Keresés

REM: Everybody hurts PDF Nyomtatás E-mail
REM: Everybody hurts

D G
e-|--------2-----------2------|--------3-----------3------|
B-|------3---3-------3---3----|------3---3-------3---3----|
G-|----2-------2---2-------2--|----0-------0---0-------0--|
D-|--0-----------0------------|---------------------------|
A-|---------------------------|---------------------------|
E-|---------------------------|--3-----------3------------|
Intro: D G D G
D G D
When your day is long and the night
G
The night is yours alone
When you're sure you've had enough of this life
Well hang on
G walk-down
e-|--------3------------------|
B-|------3---3-------3-----3--|
G-|----0-------0---0-----0----|
D-|---------------------------|
A-|---------------------------|
E-|--3-----------3-----2------|
hang on
Em A Em
Don't let yourself go
A Em
Cause everybody cries
A (tacit)
And everybody hurts
D G
Sometimes

Sometimes everything is wrong
Now it's time to sing along
When your day is night alone
(hold on, hold on)
If you feel like letting go
(hold on)
If you think you've had too much of this life
Well hang on
Cause everybody hurts
Take comfort in your friends
Everybody hurts

F# Bm F#
Don't throw your hand
Bm F# Bm C
Whoa now don't throw your hand
G C C/B Am (tacit)
If you feel like you're alone no no no you're not alone

If you're on your own in this life
The days and nights are long
When you think you've had too much of this life
To hang on
Well everybody hurts sometimes
Everybody cries
And everybody hurts
Sometimes
But everybody hurts sometimes
So hold on hold on hold on hold on
Hold on hold on hold on hold on
Everybody hurts
You are not alone